  0
SECTION
  2
HEADER
  9
$ACADVER
  1
AC1015
  9
$ACADMAINTVER
 70
     6
  9
$DWGCODEPAGE
  3
ANSI_1254
  9
$INSBASE
 10
0.0
 20
0.0
 30
0.0
  9
$EXTMIN
 10
0.0
 20
0.0
 30
0.0
  9
$EXTMAX
 10
279.4
 20
215.9
 30
0.0
  9
$LIMMIN
 10
0.0
 20
0.0
  9
$LIMMAX
 10
279.4
 20
215.9
  9
$ORTHOMODE
 70
     0
  9
$REGENMODE
 70
     1
  9
$FILLMODE
 70
     1
  9
$QTEXTMODE
 70
     0
  9
$MIRRTEXT
 70
     1
  9
$LTSCALE
 40
1.0
  9
$ATTMODE
 70
     1
  9
$TEXTSIZE
 40
3.5
  9
$TRACEWID
 40
1.0
  9
$TEXTSTYLE
  7
Standard
  9
$CLAYER
  8
0
  9
$CELTYPE
  6
ByLayer
  9
$CECOLOR
 62
   256
  9
$CELTSCALE
 40
1.0
  9
$DISPSILH
 70
     0
  9
$DIMSCALE
 40
1.0
  9
$DIMASZ
 40
3.5
  9
$DIMEXO
 40
1.0
  9
$DIMDLI
 40
3.75
  9
$DIMRND
 40
0.0
  9
$DIMDLE
 40
0.0
  9
$DIMEXE
 40
1.0
  9
$DIMTP
 40
0.0
  9
$DIMTM
 40
0.0
  9
$DIMTXT
 40
3.5
  9
$DIMCEN
 40
2.5
  9
$DIMTSZ
 40
0.0
  9
$DIMTOL
 70
     0
  9
$DIMLIM
 70
     0
  9
$DIMTIH
 70
     1
  9
$DIMTOH
 70
     1
  9
$DIMSE1
 70
     0
  9
$DIMSE2
 70
     0
  9
$DIMTAD
 70
     1
  9
$DIMZIN
 70
     0
  9
$DIMBLK
  1

  9
$DIMASO
 70
     1
  9
$DIMSHO
 70
     1
  9
$DIMPOST
  1

  9
$DIMAPOST
  1

  9
$DIMALT
 70
     0
  9
$DIMALTD
 70
     3
  9
$DIMALTF
 40
0.0393700787
  9
$DIMLFAC
 40
1.0
  9
$DIMTOFL
 70
     1
  9
$DIMTVP
 40
0.0
  9
$DIMTIX
 70
     0
  9
$DIMSOXD
 70
     0
  9
$DIMSAH
 70
     0
  9
$DIMBLK1
  1

  9
$DIMBLK2
  1

  9
$DIMSTYLE
  2
ISO-25
  9
$DIMCLRD
 70
     0
  9
$DIMCLRE
 70
     0
  9
$DIMCLRT
 70
     0
  9
$DIMTFAC
 40
1.0
  9
$DIMGAP
 40
1.524
  9
$DIMJUST
 70
     0
  9
$DIMSD1
 70
     0
  9
$DIMSD2
 70
     0
  9
$DIMTOLJ
 70
     0
  9
$DIMTZIN
 70
     0
  9
$DIMALTZ
 70
     0
  9
$DIMALTTZ
 70
     0
  9
$DIMUPT
 70
     0
  9
$DIMDEC
 70
     2
  9
$DIMTDEC
 70
     2
  9
$DIMALTU
 70
     2
  9
$DIMALTTD
 70
     3
  9
$DIMTXSTY
  7
Standard
  9
$DIMAUNIT
 70
     0
  9
$DIMADEC
 70
     2
  9
$DIMALTRND
 40
0.0
  9
$DIMAZIN
 70
     0
  9
$DIMDSEP
 70
    44
  9
$DIMATFIT
 70
     3
  9
$DIMFRAC
 70
     0
  9
$DIMLDRBLK
  1

  9
$DIMLUNIT
 70
     2
  9
$DIMLWD
 70
    -2
  9
$DIMLWE
 70
    -2
  9
$DIMTMOVE
 70
     0
  9
$LUNITS
 70
     2
  9
$LUPREC
 70
     2
  9
$SKETCHINC
 40
1.0
  9
$FILLETRAD
 40
10.0
  9
$AUNITS
 70
     0
  9
$AUPREC
 70
     2
  9
$MENU
  1
.
  9
$ELEVATION
 40
0.0
  9
$PELEVATION
 40
0.0
  9
$THICKNESS
 40
0.0
  9
$LIMCHECK
 70
     0
  9
$CHAMFERA
 40
0.0
  9
$CHAMFERB
 40
0.0
  9
$CHAMFERC
 40
0.0
  9
$CHAMFERD
 40
0.0
  9
$SKPOLY
 70
     0
  9
$TDCREATE
 40
2459935.70950846
  9
$TDUCREATE
 40
2459935.58450846
  9
$TDUPDATE
 40
2459935.709508646
  9
$TDUUPDATE
 40
2459935.584508646
  9
$TDINDWG
 40
0.0000000116
  9
$TDUSRTIMER
 40
0.0000000116
  9
$USRTIMER
 70
     1
  9
$ANGBASE
 50
0.0
  9
$ANGDIR
 70
     0
  9
$PDMODE
 70
     0
  9
$PDSIZE
 40
-1.0
  9
$PLINEWID
 40
0.0
  9
$SPLFRAME
 70
     0
  9
$SPLINETYPE
 70
     6
  9
$SPLINESEGS
 70
     8
  9
$HANDSEED
  5
10C
  9
$SURFTAB1
 70
     6
  9
$SURFTAB2
 70
     6
  9
$SURFTYPE
 70
     6
  9
$SURFU
 70
     6
  9
$SURFV
 70
     6
  9
$UCSBASE
  2

  9
$UCSNAME
  2

  9
$UCSORG
 10
0.0
 20
0.0
 30
0.0
  9
$UCSXDIR
 10
1.0
 20
0.0
 30
0.0
  9
$UCSYDIR
 10
0.0
 20
1.0
 30
0.0
  9
$UCSORTHOREF
  2

  9
$UCSORTHOVIEW
 70
     0
  9
$UCSORGTOP
 10
0.0
 20
0.0
 30
0.0
  9
$UCSORGBOTTOM
 10
0.0
 20
0.0
 30
0.0
  9
$UCSORGLEFT
 10
0.0
 20
0.0
 30
0.0
  9
$UCSORGRIGHT
 10
0.0
 20
0.0
 30
0.0
  9
$UCSORGFRONT
 10
0.0
 20
0.0
 30
0.0
  9
$UCSORGBACK
 10
0.0
 20
0.0
 30
0.0
  9
$PUCSBASE
  2

  9
$PUCSNAME
  2

  9
$PUCSORG
 10
0.0
 20
0.0
 30
0.0
  9
$PUCSXDIR
 10
1.0
 20
0.0
 30
0.0
  9
$PUCSYDIR
 10
0.0
 20
1.0
 30
0.0
  9
$PUCSORTHOREF
  2

  9
$PUCSORTHOVIEW
 70
     0
  9
$PUCSORGTOP
 10
0.0
 20
0.0
 30
0.0
  9
$PUCSORGBOTTOM
 10
0.0
 20
0.0
 30
0.0
  9
$PUCSORGLEFT
 10
0.0
 20
0.0
 30
0.0
  9
$PUCSORGRIGHT
 10
0.0
 20
0.0
 30
0.0
  9
$PUCSORGFRONT
 10
0.0
 20
0.0
 30
0.0
  9
$PUCSORGBACK
 10
0.0
 20
0.0
 30
0.0
  9
$USERI1
 70
     0
  9
$USERI2
 70
     0
  9
$USERI3
 70
     0
  9
$USERI4
 70
     0
  9
$USERI5
 70
     0
  9
$USERR1
 40
0.0
  9
$USERR2
 40
0.0
  9
$USERR3
 40
0.0
  9
$USERR4
 40
0.0
  9
$USERR5
 40
0.0
  9
$WORLDVIEW
 70
     1
  9
$SHADEDGE
 70
     3
  9
$SHADEDIF
 70
    70
  9
$TILEMODE
 70
     1
  9
$MAXACTVP
 70
    64
  9
$PINSBASE
 10
0.0
 20
0.0
 30
0.0
  9
$PLIMCHECK
 70
     0
  9
$PEXTMIN
 10
1.0000000000E+20
 20
1.0000000000E+20
 30
1.0000000000E+20
  9
$PEXTMAX
 10
-1.0000000000E+20
 20
-1.0000000000E+20
 30
-1.0000000000E+20
  9
$PLIMMIN
 10
0.0
 20
0.0
  9
$PLIMMAX
 10
420.0
 20
297.0
  9
$UNITMODE
 70
     0
  9
$VISRETAIN
 70
     1
  9
$PLINEGEN
 70
     0
  9
$PSLTSCALE
 70
     1
  9
$TREEDEPTH
 70
  3020
  9
$CMLSTYLE
  2
Standard
  9
$CMLJUST
 70
     0
  9
$CMLSCALE
 40
20.0
  9
$PROXYGRAPHICS
 70
     1
  9
$MEASUREMENT
 70
     1
  9
$CELWEIGHT
370
    -1
  9
$ENDCAPS
280
     0
  9
$JOINSTYLE
280
     0
  9
$LWDISPLAY
290
     1
  9
$INSUNITS
 70
     4
  9
$HYPERLINKBASE
  1

  9
$STYLESHEET
  1

  9
$XEDIT
290
     1
  9
$CEPSNTYPE
380
     0
  9
$PSTYLEMODE
290
     1
  9
$FINGERPRINTGUID
  2
{5638babf-d4c7-42a9-805b-9316cc97015b}
  9
$VERSIONGUID
  2
{FAEB1C32-E019-11D5-929B-00C0DF256EC4}
  9
$EXTNAMES
290
     1
  9
$PSVPSCALE
 40
0.0
  9
$OLESTARTUP
290
     0
  0
ENDSEC
  0
SECTION
  2
CLASSES
  0
CLASS
  1
ACDBDICTIONARYWDFLT
  2
AcDbDictionaryWithDefault
  3
ObjectDBX Classes
 90
        0
280
     0
281
     0
  0
CLASS
  1
VISUALSTYLE
  2
AcDbVisualStyle
  3
ObjectDBX Classes
 90
     4095
280
     0
281
     0
  0
CLASS
  1
MATERIAL
  2
AcDbMaterial
  3
ObjectDBX Classes
 90
     1153
280
     0
281
     0
  0
CLASS
  1
SCALE
  2
AcDbScale
  3
ObjectDBX Classes
 90
     1153
280
     0
281
     0
  0
CLASS
  1
TABLESTYLE
  2
AcDbTableStyle
  3
ObjectDBX Classes
 90
     4095
280
     0
281
     0
  0
CLASS
  1
MLEADERSTYLE
  2
AcDbMLeaderStyle
  3
ACDB_MLEADERSTYLE_CLASS
 90
     4095
280
     0
281
     0
  0
CLASS
  1
SUN
  2
AcDbSun
  3
SCENEOE
 90
     1153
280
     0
281
     0
  0
CLASS
  1
ACDBPLACEHOLDER
  2
AcDbPlaceHolder
  3
ObjectDBX Classes
 90
        0
280
     0
281
     0
  0
CLASS
  1
LAYOUT
  2
AcDbLayout
  3
ObjectDBX Classes
 90
        0
280
     0
281
     0
  0
ENDSEC
  0
SECTION
  2
TABLES
  0
TABLE
  2
VPORT
  5
8
330
0
100
AcDbSymbolTable
 70
     1
  0
VPORT
  5
29
330
8
100
AcDbSymbolTableRecord
100
AcDbViewportTableRecord
  2
*Active
 70
     0
 10
0.0
 20
0.0
 11
1.0
 21
1.0
 12
139.7
 22
107.95
 13
0.0
 23
0.0
 14
10.0
 24
10.0
 15
10.0
 25
10.0
 16
0.0
 26
0.0
 36
1.0
 17
0.0
 27
0.0
 37
0.0
 40
215.9
 41
1.2941176471
 42
50.0
 43
0.0
 44
0.0
 50
0.0
 51
0.0
 71
     0
 72
  2000
 73
     1
 74
     3
 75
     0
 76
     0
 77
     0
 78
     0
281
     0
 65
     1
110
0.0
120
0.0
130
0.0
111
1.0
121
0.0
131
0.0
112
0.0
122
1.0
132
0.0
 79
     0
146
0.0
  0
ENDTAB
  0
TABLE
  2
LTYPE
  5
5
330
0
100
AcDbSymbolTable
 70
     6
  0
LTYPE
  5
14
330
5
100
AcDbSymbolTableRecord
100
AcDbLinetypeTableRecord
  2
ByBlock
 70
     0
  3

 72
    65
 73
     0
 40
0.0
  0
LTYPE
  5
15
330
5
100
AcDbSymbolTableRecord
100
AcDbLinetypeTableRecord
  2
ByLayer
 70
     0
  3

 72
    65
 73
     0
 40
0.0
  0
LTYPE
  5
16
330
5
100
AcDbSymbolTableRecord
100
AcDbLinetypeTableRecord
  2
Continuous
 70
     0
  3
Solid line
 72
    65
 73
     0
 40
0.0
  0
LTYPE
  5
6E
330
5
100
AcDbSymbolTableRecord
100
AcDbLinetypeTableRecord
  2
HIDDEN
 70
     0
  3
Hidden __ __ __ __ __ __ __ __ __ __ __ __ __ __
 72
    65
 73
     2
 40
1.905
 49
1.27
 74
     0
 49
-0.635
 74
     0
  0
LTYPE
  5
6F
330
5
100
AcDbSymbolTableRecord
100
AcDbLinetypeTableRecord
  2
PHANTOM
 70
     0
  3
Phantom ______  __  __  ______  __  __  ______
 72
    65
 73
     6
 40
12.7
 49
6.35
 74
     0
 49
-1.27
 74
     0
 49
1.27
 74
     0
 49
-1.27
 74
     0
 49
1.27
 74
     0
 49
-1.27
 74
     0
  0
LTYPE
  5
70
330
5
100
AcDbSymbolTableRecord
100
AcDbLinetypeTableRecord
  2
CENTER
 70
     0
  3
Center ____ _ ____ _ ____ _ ____ _ ____ _ ____
 72
    65
 73
     4
 40
10.16
 49
6.35
 74
     0
 49
-1.27
 74
     0
 49
1.27
 74
     0
 49
-1.27
 74
     0
  0
LTYPE
  5
71
330
5
100
AcDbSymbolTableRecord
100
AcDbLinetypeTableRecord
  2
CENTERX2
 70
     0
  3
Center (2x) ________  __  ________  __  _____
 72
    65
 73
     4
 40
20.32
 49
12.7
 74
     0
 49
-2.54
 74
     0
 49
2.54
 74
     0
 49
-2.54
 74
     0
  0
LTYPE
  5
72
330
5
100
AcDbSymbolTableRecord
100
AcDbLinetypeTableRecord
  2
DOT2
 70
     0
  3
Dot (.5x) ........................................
 72
    65
 73
     2
 40
0.635
 49
0.0
 74
     0
 49
-0.635
 74
     0
  0
ENDTAB
  0
TABLE
  2
LAYER
  5
2
330
0
100
AcDbSymbolTable
 70
    17
  0
LAYER
  5
10
330
2
100
AcDbSymbolTableRecord
100
AcDbLayerTableRecord
  2
0
 70
     0
 62
     7
  6
Continuous
370
    -3
390
F
  0
LAYER
  5
73
330
2
100
AcDbSymbolTableRecord
100
AcDbLayerTableRecord
  2
FORMAT
 70
     0
 62
     7
  6
Continuous
370
    -3
390
F
  0
LAYER
  5
74
330
2
100
AcDbSymbolTableRecord
100
AcDbLayerTableRecord
  2
YARDIMCI_GEOMETRI
 70
     0
 62
    -6
  6
Continuous
290
     0
370
    -3
390
F
  0
LAYER
  5
75
330
2
100
AcDbSymbolTableRecord
100
AcDbLayerTableRecord
  2
SAYFA_CERCEVESI
 70
     0
 62
     7
  6
Continuous
370
    25
390
F
  0
LAYER
  5
76
330
2
100
AcDbSymbolTableRecord
100
AcDbLayerTableRecord
  2
ANTET
 70
     0
 62
     7
  6
Continuous
370
    -3
390
F
  0
LAYER
  5
77
330
2
100
AcDbSymbolTableRecord
100
AcDbLayerTableRecord
  2
OLCU
 70
     0
 62
   150
  6
Continuous
370
    -3
390
F
  0
LAYER
  5
78
330
2
100
AcDbSymbolTableRecord
100
AcDbLayerTableRecord
  2
METIN
 70
     0
 62
    96
  6
Continuous
370
    -3
390
F
  0
LAYER
  5
79
330
2
100
AcDbSymbolTableRecord
100
AcDbLayerTableRecord
  2
BALON
 70
     0
 62
     5
  6
Continuous
370
    -3
390
F
  0
LAYER
  5
7A
330
2
100
AcDbSymbolTableRecord
100
AcDbLayerTableRecord
  2
VURGU
 70
     0
 62
     7
  6
Continuous
370
    -3
390
F
  0
LAYER
  5
7B
330
2
100
AcDbSymbolTableRecord
100
AcDbLayerTableRecord
  2
SILIK
 70
     0
 62
     7
  6
Continuous
370
    -3
390
F
  0
LAYER
  5
7C
330
2
100
AcDbSymbolTableRecord
100
AcDbLayerTableRecord
  2
MODEL
 70
     0
 62
     7
  6
Continuous
370
    -3
390
F
  0
LAYER
  5
7D
330
2
100
AcDbSymbolTableRecord
100
AcDbLayerTableRecord
  2
DETAYLANDıRMA
 70
     0
 62
   190
  6
Continuous
370
    -3
390
F
  0
LAYER
  5
7E
330
2
100
AcDbSymbolTableRecord
100
AcDbLayerTableRecord
  2
TOLERANS
 70
     0
 62
   230
  6
Continuous
370
    -3
390
F
  0
LAYER
  5
7F
330
2
100
AcDbSymbolTableRecord
100
AcDbLayerTableRecord
  2
MERKEZ_CIZGILERI
 70
     0
 62
    30
  6
Continuous
370
    -3
390
F
  0
LAYER
  5
80
330
2
100
AcDbSymbolTableRecord
100
AcDbLayerTableRecord
  2
KESIT-DETAY_CIZGILERI
 70
     0
 62
     7
  6
Continuous
370
    -3
390
F
  0
LAYER
  5
81
330
2
100
AcDbSymbolTableRecord
100
AcDbLayerTableRecord
  2
\U+041E\U+0421\U+0415\U+0412\U+042B\U+0415
 70
     0
 62
     7
  6
Continuous
370
    -3
390
F
  0
LAYER
  5
82
330
2
100
AcDbSymbolTableRecord
100
AcDbLayerTableRecord
  2
\U+0412\U+041E\U+0414\U+042F\U+041D\U+042B\U+0415_\U+0417\U+041D\U+0410\U+041A\U+0418
 70
     0
 62
    11
  6
Continuous
370
    -3
390
F
  0
ENDTAB
  0
TABLE
  2
STYLE
  5
3
330
0
100
AcDbSymbolTable
 70
     1
  0
STYLE
  5
11
330
3
100
AcDbSymbolTableRecord
100
AcDbTextStyleTableRecord
  2
Standard
 70
     0
 40
0.0
 41
1.0
 50
0.0
 71
     0
 42
3.5
  3
txt
  4

  0
ENDTAB
  0
TABLE
  2
VIEW
  5
6
330
0
100
AcDbSymbolTable
 70
     0
  0
ENDTAB
  0
TABLE
  2
UCS
  5
7
330
0
100
AcDbSymbolTable
 70
     0
  0
ENDTAB
  0
TABLE
  2
APPID
  5
9
330
0
100
AcDbSymbolTable
 70
     1
  0
APPID
  5
12
330
9
100
AcDbSymbolTableRecord
100
AcDbRegAppTableRecord
  2
ACAD
 70
     0
  0
ENDTAB
  0
TABLE
  2
DIMSTYLE
  5
A
330
0
100
AcDbSymbolTable
 70
     1
100
AcDbDimStyleTable
  0
DIMSTYLE
105
27
330
A
100
AcDbSymbolTableRecord
100
AcDbDimStyleTableRecord
  2
ISO-25
 70
     0
 41
2.5
 42
0.625
 43
3.75
 44
1.25
 73
     0
 74
     0
 77
     1
 78
     8
140
2.5
141
2.5
143
0.0393700787
147
0.625
171
     3
172
     1
178
     0
271
     2
272
     2
274
     3
278
    44
283
     0
284
     8
340
11
  0
ENDTAB
  0
TABLE
  2
BLOCK_RECORD
  5
1
330
0
100
AcDbSymbolTable
 70
     2
  0
BLOCK_RECORD
  5
1F
330
1
100
AcDbSymbolTableRecord
100
AcDbBlockTableRecord
  2
*Model_Space
340
22
  0
BLOCK_RECORD
  5
1B
330
1
100
AcDbSymbolTableRecord
100
AcDbBlockTableRecord
  2
*Paper_Space
340
1E
  0
BLOCK_RECORD
  5
23
330
1
100
AcDbSymbolTableRecord
100
AcDbBlockTableRecord
  2
*Paper_Space0
340
26
  0
BLOCK_RECORD
  5
8E
330
1
100
AcDbSymbolTableRecord
100
AcDbBlockTableRecord
  2
SW_CENTERMARKSYMBOL_0
340
0
102
{BLKREFS
331
99
102
}
  0
ENDTAB
  0
ENDSEC
  0
SECTION
  2
BLOCKS
  0
BLOCK
  5
20
330
1F
100
AcDbEntity
  8
0
100
AcDbBlockBegin
  2
*Model_Space
 70
     0
 10
0.0
 20
0.0
 30
0.0
  3
*Model_Space
  1

  0
ENDBLK
  5
21
330
1F
100
AcDbEntity
  8
0
100
AcDbBlockEnd
  0
BLOCK
  5
1C
330
1B
100
AcDbEntity
 67
     1
  8
0
100
AcDbBlockBegin
  2
*Paper_Space
 70
     0
 10
0.0
 20
0.0
 30
0.0
  3
*Paper_Space
  1

  0
ENDBLK
  5
1D
330
1B
100
AcDbEntity
 67
     1
  8
0
100
AcDbBlockEnd
  0
BLOCK
  5
24
330
23
100
AcDbEntity
  8
0
100
AcDbBlockBegin
  2
*Paper_Space0
 70
     0
 10
0.0
 20
0.0
 30
0.0
  3
*Paper_Space0
  1

  0
ENDBLK
  5
25
330
23
100
AcDbEntity
  8
0
100
AcDbBlockEnd
  0
BLOCK
  5
8F
330
8E
100
AcDbEntity
  8
0
100
AcDbBlockBegin
  2
SW_CENTERMARKSYMBOL_0
 70
     0
 10
0.0
 20
0.0
 30
0.0
  3
SW_CENTERMARKSYMBOL_0
  1

  0
LINE
  5
91
330
8E
100
AcDbEntity
  8
FORMAT
 62
     0
100
AcDbLine
 10
0.0
 20
0.0
 30
0.0
 11
0.0
 21
2.5
 31
0.0
  0
LINE
  5
92
330
8E
100
AcDbEntity
  8
FORMAT
 62
     0
100
AcDbLine
 10
0.0
 20
0.0
 30
0.0
 11
-2.5
 21
0.0
 31
0.0
  0
LINE
  5
93
330
8E
100
AcDbEntity
  8
FORMAT
 62
     0
100
AcDbLine
 10
0.0
 20
0.0
 30
0.0
 11
0.0
 21
-2.5
 31
0.0
  0
LINE
  5
94
330
8E
100
AcDbEntity
  8
FORMAT
 62
     0
100
AcDbLine
 10
0.0
 20
0.0
 30
0.0
 11
2.5
 21
0.0
 31
0.0
  0
LINE
  5
95
330
8E
100
AcDbEntity
  8
FORMAT
 62
     0
100
AcDbLine
 10
0.0
 20
5.0
 30
0.0
 11
0.0
 21
34.0
 31
0.0
  0
LINE
  5
96
330
8E
100
AcDbEntity
  8
FORMAT
 62
     0
100
AcDbLine
 10
-5.0
 20
0.0
 30
0.0
 11
-34.0
 21
0.0
 31
0.0
  0
LINE
  5
97
330
8E
100
AcDbEntity
  8
FORMAT
 62
     0
100
AcDbLine
 10
0.0
 20
-5.0
 30
0.0
 11
0.0
 21
-34.0
 31
0.0
  0
LINE
  5
98
330
8E
100
AcDbEntity
  8
FORMAT
 62
     0
100
AcDbLine
 10
5.0
 20
0.0
 30
0.0
 11
34.0
 21
0.0
 31
0.0
  0
ENDBLK
  5
90
330
8E
100
AcDbEntity
  8
0
100
AcDbBlockEnd
  0
ENDSEC
  0
SECTION
  2
ENTITIES
  0
CIRCLE
  5
83
330
1F
100
AcDbEntity
  8
0
  6
Continuous
 62
     7
370
    25
100
AcDbCircle
 10
139.8323425481
 20
108.7440552885
 30
0.0
 40
25.7
  0
CIRCLE
  5
84
330
1F
100
AcDbEntity
  8
0
  6
Continuous
 62
     7
370
    25
100
AcDbCircle
 10
139.8323425481
 20
108.7440552885
 30
0.0
 40
31.50000000000001
  0
CIRCLE
  5
85
330
1F
100
AcDbEntity
  8
0
  6
Continuous
 62
     7
370
    25
100
AcDbCircle
 10
139.8323425481
 20
108.7440552885
 30
0.0
 40
23.25000000000001
  0
CIRCLE
  5
86
330
1F
100
AcDbEntity
  8
0
  6
Continuous
 62
     7
370
    25
100
AcDbCircle
 10
139.8323425481
 20
108.7440552885
 30
0.0
 40
33.50000000000001
  0
CIRCLE
  5
87
330
1F
100
AcDbEntity
  8
0
  6
Continuous
 62
     7
370
    25
100
AcDbCircle
 10
139.8323425481
 20
108.7440552885
 30
0.0
 40
34.00000000000001
  0
LINE
  5
88
330
1F
100
AcDbEntity
  8
0
  6
Continuous
 62
     7
370
    25
100
AcDbLine
 10
175.8323425481
 20
87.9594455976
 30
0.0
 11
175.8323425481
 21
129.5286649793
 31
0.0
  0
LINE
  5
89
330
1F
100
AcDbEntity
  8
0
  6
Continuous
 62
     7
370
    25
100
AcDbLine
 10
139.8323425481
 20
67.1748359068
 30
0.0
 11
175.8323425481
 21
87.9594455976
 31
0.0
  0
LINE
  5
8A
330
1F
100
AcDbEntity
  8
0
  6
Continuous
 62
     7
370
    25
100
AcDbLine
 10
103.8323425481
 20
129.5286649793
 30
0.0
 11
103.8323425481
 21
87.9594455976
 31
0.0
  0
LINE
  5
8B
330
1F
100
AcDbEntity
  8
0
  6
Continuous
 62
     7
370
    25
100
AcDbLine
 10
175.8323425481
 20
129.5286649793
 30
0.0
 11
139.8323425481
 21
150.3132746701
 31
0.0
  0
LINE
  5
8C
330
1F
100
AcDbEntity
  8
0
  6
Continuous
 62
     7
370
    25
100
AcDbLine
 10
139.8323425481
 20
150.3132746701
 30
0.0
 11
103.8323425481
 21
129.5286649793
 31
0.0
  0
LINE
  5
8D
330
1F
100
AcDbEntity
  8
0
  6
Continuous
 62
     7
370
    25
100
AcDbLine
 10
103.8323425481
 20
87.9594455976
 30
0.0
 11
139.8323425481
 21
67.1748359068
 31
0.0
  0
INSERT
  5
99
330
1F
100
AcDbEntity
  8
FORMAT
 62
     7
100
AcDbBlockReference
  2
SW_CENTERMARKSYMBOL_0
 10
139.8323425481
 20
108.7440552885
 30
0.0
  0
LINE
  5
9A
330
1F
100
AcDbEntity
  8
0
  6
Continuous
 62
     7
370
    25
100
AcDbLine
 10
173.8323425481
 20
230.6476986603
 30
0.0
 11
173.8323425481
 21
257.1476986603
 31
0.0
  0
LINE
  5
9B
330
1F
100
AcDbEntity
  8
0
  6
Continuous
 62
     7
370
    25
100
AcDbLine
 10
105.8323425481
 20
257.1476986603
 30
0.0
 11
105.8323425481
 21
230.6476986603
 31
0.0
  0
ARC
  5
9C
330
1F
100
AcDbEntity
  8
0
  6
Continuous
 62
     7
370
    25
100
AcDbCircle
 10
173.3323425481
 20
257.1476986603
 30
0.0
 40
0.5
100
AcDbArc
 50
0.0
 51
90.0
  0
ARC
  5
9D
330
1F
100
AcDbEntity
  8
0
  6
Continuous
 62
     7
370
    25
100
AcDbCircle
 10
106.3323425481
 20
257.1476986603
 30
0.0
 40
0.5
100
AcDbArc
 50
90.0
 51
180.0
  0
LINE
  5
9E
330
1F
100
AcDbEntity
  8
0
  6
Continuous
 62
     7
370
    25
100
AcDbLine
 10
172.8323425481
 20
207.6476986603
 30
0.0
 11
172.8323425481
 21
218.6476986603
 31
0.0
  0
LINE
  5
9F
330
1F
100
AcDbEntity
  8
0
  6
Continuous
 62
     7
370
    25
100
AcDbLine
 10
106.8323425481
 20
218.6476986603
 30
0.0
 11
106.8323425481
 21
207.6476986603
 31
0.0
  0
LINE
  5
A0
330
1F
100
AcDbEntity
  8
0
  6
Continuous
 62
     7
370
    25
100
AcDbLine
 10
171.3323425481
 20
257.6476986603
 30
0.0
 11
171.3323425481
 21
331.6476986603
 31
0.0
  0
LINE
  5
A1
330
1F
100
AcDbEntity
  8
0
  6
Continuous
 62
     7
370
    25
100
AcDbLine
 10
108.3323425481
 20
331.6476986603
 30
0.0
 11
108.3323425481
 21
257.6476986603
 31
0.0
  0
LINE
  5
A2
330
1F
100
AcDbEntity
  8
0
  6
Continuous
 62
     7
370
    25
100
AcDbLine
 10
139.8323425481
 20
230.6476986603
 30
0.0
 11
139.8323425481
 21
218.6476986603
 31
0.0
  0
LINE
  5
A3
330
1F
100
AcDbEntity
  8
0
  6
Continuous
 62
     7
370
    25
100
AcDbLine
 10
139.8323425481
 20
230.6476986603
 30
0.0
 11
175.8323425481
 21
230.6476986603
 31
0.0
  0
LINE
  5
A4
330
1F
100
AcDbEntity
  8
0
  6
Continuous
 62
     7
370
    25
100
AcDbLine
 10
175.8323425481
 20
230.6476986603
 30
0.0
 11
175.8323425481
 21
218.6476986603
 31
0.0
  0
LINE
  5
A5
330
1F
100
AcDbEntity
  8
0
  6
Continuous
 62
     7
370
    25
100
AcDbLine
 10
139.8323425481
 20
218.6476986603
 30
0.0
 11
175.8323425481
 21
218.6476986603
 31
0.0
  0
LINE
  5
A6
330
1F
100
AcDbEntity
  8
0
  6
Continuous
 62
     7
370
    25
100
AcDbLine
 10
103.8323425481
 20
230.6476986603
 30
0.0
 11
103.8323425481
 21
218.6476986603
 31
0.0
  0
LINE
  5
A7
330
1F
100
AcDbEntity
  8
0
  6
Continuous
 62
     7
370
    25
100
AcDbLine
 10
103.8323425481
 20
230.6476986603
 30
0.0
 11
139.8323425481
 21
230.6476986603
 31
0.0
  0
LINE
  5
A8
330
1F
100
AcDbEntity
  8
0
  6
Continuous
 62
     7
370
    25
100
AcDbLine
 10
103.8323425481
 20
218.6476986603
 30
0.0
 11
139.8323425481
 21
218.6476986603
 31
0.0
  0
LINE
  5
A9
330
1F
100
AcDbEntity
  8
0
  6
Continuous
 62
     7
370
    25
100
AcDbLine
 10
106.3323425481
 20
257.6476986603
 30
0.0
 11
173.3323425481
 21
257.6476986603
 31
0.0
  0
LINE
  5
AA
330
1F
100
AcDbEntity
  8
0
  6
Continuous
 62
     7
370
    25
100
AcDbLine
 10
172.8323425481
 20
207.6476986603
 30
0.0
 11
106.8323425481
 21
207.6476986603
 31
0.0
  0
LINE
  5
AB
330
1F
100
AcDbEntity
  8
0
  6
Continuous
 62
     7
370
    25
100
AcDbLine
 10
171.3323425481
 20
331.6476986603
 30
0.0
 11
108.3323425481
 21
331.6476986603
 31
0.0
  0
LINE
  5
AC
330
1F
100
AcDbEntity
  8
0
  6
Continuous
 62
     1
370
    25
100
AcDbLine
 10
173.8323425481
 20
257.1476986603
 30
0.0
 11
105.8323425481
 21
257.1476986603
 31
0.0
  0
LINE
  5
AD
330
1F
100
AcDbEntity
  8
0
  6
Continuous
 62
     7
370
    25
100
AcDbLine
 10
270.3111260479
 20
74.7440552885
 30
0.0
 11
296.8111260479
 21
74.7440552885
 31
0.0
  0
LINE
  5
AE
330
1F
100
AcDbEntity
  8
0
  6
Continuous
 62
     7
370
    25
100
AcDbLine
 10
296.8111260479
 20
142.7440552885
 30
0.0
 11
270.3111260479
 21
142.7440552885
 31
0.0
  0
ARC
  5
AF
330
1F
100
AcDbEntity
  8
0
  6
Continuous
 62
     7
370
    25
100
AcDbCircle
 10
296.8111260479
 20
75.2440552885
 30
0.0
 40
0.5
100
AcDbArc
 50
270.0
 51
0.0
  0
ARC
  5
B0
330
1F
100
AcDbEntity
  8
0
  6
Continuous
 62
     7
370
    25
100
AcDbCircle
 10
296.8111260479
 20
142.2440552885
 30
0.0
 40
0.5
100
AcDbArc
 50
0.0
 51
90.0
  0
LINE
  5
B1
330
1F
100
AcDbEntity
  8
0
  6
Continuous
 62
     7
370
    25
100
AcDbLine
 10
247.3111260479
 20
75.7440552885
 30
0.0
 11
258.3111260479
 21
75.7440552885
 31
0.0
  0
LINE
  5
B2
330
1F
100
AcDbEntity
  8
0
  6
Continuous
 62
     7
370
    25
100
AcDbLine
 10
258.3111260479
 20
141.7440552885
 30
0.0
 11
247.3111260479
 21
141.7440552885
 31
0.0
  0
LINE
  5
B3
330
1F
100
AcDbEntity
  8
0
  6
Continuous
 62
     7
370
    25
100
AcDbLine
 10
297.3111260479
 20
77.2440552885
 30
0.0
 11
371.3111260479
 21
77.2440552885
 31
0.0
  0
LINE
  5
B4
330
1F
100
AcDbEntity
  8
0
  6
Continuous
 62
     7
370
    25
100
AcDbLine
 10
371.3111260479
 20
140.2440552885
 30
0.0
 11
297.3111260479
 21
140.2440552885
 31
0.0
  0
LINE
  5
B5
330
1F
100
AcDbEntity
  8
0
  6
Continuous
 62
     7
370
    25
100
AcDbLine
 10
270.3111260479
 20
129.5286649793
 30
0.0
 11
258.3111260479
 21
129.5286649793
 31
0.0
  0
LINE
  5
B6
330
1F
100
AcDbEntity
  8
0
  6
Continuous
 62
     7
370
    25
100
AcDbLine
 10
270.3111260479
 20
129.5286649793
 30
0.0
 11
270.3111260479
 21
87.9594455976
 31
0.0
  0
LINE
  5
B7
330
1F
100
AcDbEntity
  8
0
  6
Continuous
 62
     7
370
    25
100
AcDbLine
 10
270.3111260479
 20
87.9594455976
 30
0.0
 11
258.3111260479
 21
87.9594455976
 31
0.0
  0
LINE
  5
B8
330
1F
100
AcDbEntity
  8
0
  6
Continuous
 62
     7
370
    25
100
AcDbLine
 10
258.3111260479
 20
129.5286649793
 30
0.0
 11
258.3111260479
 21
87.9594455976
 31
0.0
  0
LINE
  5
B9
330
1F
100
AcDbEntity
  8
0
  6
Continuous
 62
     7
370
    25
100
AcDbLine
 10
270.3111260479
 20
87.9594455976
 30
0.0
 11
270.3111260479
 21
67.1748359068
 31
0.0
  0
LINE
  5
BA
330
1F
100
AcDbEntity
  8
0
  6
Continuous
 62
     7
370
    25
100
AcDbLine
 10
270.3111260479
 20
67.1748359068
 30
0.0
 11
258.3111260479
 21
67.1748359068
 31
0.0
  0
LINE
  5
BB
330
1F
100
AcDbEntity
  8
0
  6
Continuous
 62
     7
370
    25
100
AcDbLine
 10
258.3111260479
 20
87.9594455976
 30
0.0
 11
258.3111260479
 21
67.1748359068
 31
0.0
  0
LINE
  5
BC
330
1F
100
AcDbEntity
  8
0
  6
Continuous
 62
     7
370
    25
100
AcDbLine
 10
270.3111260479
 20
150.3132746701
 30
0.0
 11
258.3111260479
 21
150.3132746701
 31
0.0
  0
LINE
  5
BD
330
1F
100
AcDbEntity
  8
0
  6
Continuous
 62
     7
370
    25
100
AcDbLine
 10
270.3111260479
 20
150.3132746701
 30
0.0
 11
270.3111260479
 21
129.5286649793
 31
0.0
  0
LINE
  5
BE
330
1F
100
AcDbEntity
  8
0
  6
Continuous
 62
     7
370
    25
100
AcDbLine
 10
258.3111260479
 20
150.3132746701
 30
0.0
 11
258.3111260479
 21
129.5286649793
 31
0.0
  0
LINE
  5
BF
330
1F
100
AcDbEntity
  8
0
  6
Continuous
 62
     7
370
    25
100
AcDbLine
 10
297.3111260479
 20
108.7440552885
 30
0.0
 11
297.3111260479
 21
142.2440552885
 31
0.0
  0
LINE
  5
C0
330
1F
100
AcDbEntity
  8
0
  6
Continuous
 62
     7
370
    25
100
AcDbLine
 10
297.3111260479
 20
75.2440552885
 30
0.0
 11
297.3111260479
 21
108.7440552885
 31
0.0
  0
LINE
  5
C1
330
1F
100
AcDbEntity
  8
0
  6
Continuous
 62
     7
370
    25
100
AcDbLine
 10
247.3111260479
 20
108.7440552885
 30
0.0
 11
247.3111260479
 21
141.7440552885
 31
0.0
  0
LINE
  5
C2
330
1F
100
AcDbEntity
  8
0
  6
Continuous
 62
     7
370
    25
100
AcDbLine
 10
247.3111260479
 20
75.7440552885
 30
0.0
 11
247.3111260479
 21
108.7440552885
 31
0.0
  0
LINE
  5
C3
330
1F
100
AcDbEntity
  8
0
  6
Continuous
 62
     7
370
    25
100
AcDbLine
 10
371.3111260479
 20
108.7440552885
 30
0.0
 11
371.3111260479
 21
140.2440552885
 31
0.0
  0
LINE
  5
C4
330
1F
100
AcDbEntity
  8
0
  6
Continuous
 62
     7
370
    25
100
AcDbLine
 10
371.3111260479
 20
77.2440552885
 30
0.0
 11
371.3111260479
 21
108.7440552885
 31
0.0
  0
LINE
  5
C5
330
1F
100
AcDbEntity
  8
0
  6
Continuous
 62
     1
370
    25
100
AcDbLine
 10
296.8111260479
 20
108.7440552885
 30
0.0
 11
296.8111260479
 21
142.7440552885
 31
0.0
  0
LINE
  5
C6
330
1F
100
AcDbEntity
  8
0
  6
Continuous
 62
     1
370
    25
100
AcDbLine
 10
296.8111260479
 20
74.7440552885
 30
0.0
 11
296.8111260479
 21
108.7440552885
 31
0.0
  0
LINE
  5
C7
330
1F
100
AcDbEntity
  8
0
  6
Continuous
 62
     7
370
    25
100
AcDbLine
 10
9.0257923613
 20
142.7440552885
 30
0.0
 11
-17.4742076387
 21
142.7440552885
 31
0.0
  0
LINE
  5
C8
330
1F
100
AcDbEntity
  8
0
  6
Continuous
 62
     7
370
    25
100
AcDbLine
 10
-17.4742076387
 20
74.7440552885
 30
0.0
 11
9.0257923613
 21
74.7440552885
 31
0.0
  0
ARC
  5
C9
330
1F
100
AcDbEntity
  8
0
  6
Continuous
 62
     7
370
    25
100
AcDbCircle
 10
-17.4742076387
 20
142.2440552885
 30
0.0
 40
0.5000000000000036
100
AcDbArc
 50
90.0
 51
180.0
  0
ARC
  5
CA
330
1F
100
AcDbEntity
  8
0
  6
Continuous
 62
     7
370
    25
100
AcDbCircle
 10
-17.4742076387
 20
75.2440552885
 30
0.0
 40
0.5000000000000036
100
AcDbArc
 50
180.0
 51
270.0
  0
LINE
  5
CB
330
1F
100
AcDbEntity
  8
0
  6
Continuous
 62
     7
370
    25
100
AcDbLine
 10
32.0257923613
 20
141.7440552885
 30
0.0
 11
21.0257923613
 21
141.7440552885
 31
0.0
  0
LINE
  5
CC
330
1F
100
AcDbEntity
  8
0
  6
Continuous
 62
     7
370
    25
100
AcDbLine
 10
21.0257923613
 20
75.7440552885
 30
0.0
 11
32.0257923613
 21
75.7440552885
 31
0.0
  0
LINE
  5
CD
330
1F
100
AcDbEntity
  8
0
  6
Continuous
 62
     7
370
    25
100
AcDbLine
 10
-17.9742076387
 20
140.2440552885
 30
0.0
 11
-91.9742076387
 21
140.2440552885
 31
0.0
  0
LINE
  5
CE
330
1F
100
AcDbEntity
  8
0
  6
Continuous
 62
     7
370
    25
100
AcDbLine
 10
-91.9742076387
 20
77.2440552885
 30
0.0
 11
-17.9742076387
 21
77.2440552885
 31
0.0
  0
LINE
  5
CF
330
1F
100
AcDbEntity
  8
0
  6
Continuous
 62
     7
370
    25
100
AcDbLine
 10
9.0257923613
 20
67.1748359068
 30
0.0
 11
21.0257923613
 21
67.1748359068
 31
0.0
  0
LINE
  5
D0
330
1F
100
AcDbEntity
  8
0
  6
Continuous
 62
     7
370
    25
100
AcDbLine
 10
9.0257923613
 20
67.1748359068
 30
0.0
 11
9.0257923613
 21
87.9594455976
 31
0.0
  0
LINE
  5
D1
330
1F
100
AcDbEntity
  8
0
  6
Continuous
 62
     7
370
    25
100
AcDbLine
 10
9.0257923613
 20
87.9594455976
 30
0.0
 11
21.0257923613
 21
87.9594455976
 31
0.0
  0
LINE
  5
D2
330
1F
100
AcDbEntity
  8
0
  6
Continuous
 62
     7
370
    25
100
AcDbLine
 10
21.0257923613
 20
67.1748359068
 30
0.0
 11
21.0257923613
 21
87.9594455976
 31
0.0
  0
LINE
  5
D3
330
1F
100
AcDbEntity
  8
0
  6
Continuous
 62
     7
370
    25
100
AcDbLine
 10
9.0257923613
 20
87.9594455976
 30
0.0
 11
9.0257923613
 21
129.5286649793
 31
0.0
  0
LINE
  5
D4
330
1F
100
AcDbEntity
  8
0
  6
Continuous
 62
     7
370
    25
100
AcDbLine
 10
9.0257923613
 20
129.5286649793
 30
0.0
 11
21.0257923613
 21
129.5286649793
 31
0.0
  0
LINE
  5
D5
330
1F
100
AcDbEntity
  8
0
  6
Continuous
 62
     7
370
    25
100
AcDbLine
 10
21.0257923613
 20
87.9594455976
 30
0.0
 11
21.0257923613
 21
129.5286649793
 31
0.0
  0
LINE
  5
D6
330
1F
100
AcDbEntity
  8
0
  6
Continuous
 62
     7
370
    25
100
AcDbLine
 10
9.0257923613
 20
129.5286649793
 30
0.0
 11
9.0257923613
 21
150.3132746701
 31
0.0
  0
LINE
  5
D7
330
1F
100
AcDbEntity
  8
0
  6
Continuous
 62
     7
370
    25
100
AcDbLine
 10
9.0257923613
 20
150.3132746701
 30
0.0
 11
21.0257923613
 21
150.3132746701
 31
0.0
  0
LINE
  5
D8
330
1F
100
AcDbEntity
  8
0
  6
Continuous
 62
     7
370
    25
100
AcDbLine
 10
21.0257923613
 20
129.5286649793
 30
0.0
 11
21.0257923613
 21
150.3132746701
 31
0.0
  0
LINE
  5
D9
330
1F
100
AcDbEntity
  8
0
  6
Continuous
 62
     7
370
    25
100
AcDbLine
 10
-17.9742076387
 20
142.2440552885
 30
0.0
 11
-17.9742076387
 21
75.2440552885
 31
0.0
  0
LINE
  5
DA
330
1F
100
AcDbEntity
  8
0
  6
Continuous
 62
     7
370
    25
100
AcDbLine
 10
32.0257923613
 20
141.7440552885
 30
0.0
 11
32.0257923613
 21
75.7440552885
 31
0.0
  0
LINE
  5
DB
330
1F
100
AcDbEntity
  8
0
  6
Continuous
 62
     7
370
    25
100
AcDbLine
 10
-91.9742076387
 20
140.2440552885
 30
0.0
 11
-91.9742076387
 21
77.2440552885
 31
0.0
  0
LINE
  5
DC
330
1F
100
AcDbEntity
  8
0
  6
Continuous
 62
     1
370
    25
100
AcDbLine
 10
-17.4742076387
 20
142.7440552885
 30
0.0
 11
-17.4742076387
 21
74.7440552885
 31
0.0
  0
LINE
  5
DD
330
1F
100
AcDbEntity
  8
0
  6
Continuous
 62
     7
370
    25
100
AcDbLine
 10
315.1292680514
 20
-14.0059515048
 30
0.0
 11
262.8033662436
 21
16.2011486326
 31
0.0
  0
LINE
  5
DE
330
1F
100
AcDbEntity
  8
0
  6
Continuous
 62
     7
370
    25
100
AcDbLine
 10
231.3059261655
 20
-38.3599296974
 30
0.0
 11
283.6318279733
 21
-68.5670298348
 31
0.0
  0
SPLINE
  5
DF
330
1F
100
AcDbEntity
  8
0
  6
Continuous
 62
     7
370
    25
100
AcDbSpline
210
0.0
220
0.0
230
1.0
 70
     8
 71
     3
 72
    12
 73
     8
 74
     0
 42
0.00000001
 43
0.00000001
 40
0.0
 40
0.0
 40
0.0
 40
0.0
 40
0.2299045691549911
 40
0.4789624179751783
 40
0.7285458203114767
 40
0.9786697894434916
 40
1.0
 40
1.0
 40
1.0
 40
1.0
 10
313.652829325017
 20
-10.80902031162131
 30
0.0
 10
313.3154228278278
 20
-10.73170813182669
 30
0.0
 10
312.6125006008871
 20
-10.57064291807532
 30
0.0
 10
311.4972265238674
 20
-10.43880126856089
 30
0.0
 10
310.3185438307595
 20
-10.39893158558654
 30
0.0
 10
309.483893973104
 20
-10.41213753564314
 30
0.0
 10
309.0367600677437
 20
-10.46442969066042
 30
0.0
 10
309.0016253707601
 20
-10.46853868127628
 30
0.0
  0
SPLINE
  5
E0
330
1F
100
AcDbEntity
  8
0
  6
Continuous
 62
     7
370
    25
100
AcDbSpline
210
0.0
220
0.0
230
1.0
 70
     8
 71
     3
 72
    12
 73
     8
 74
     0
 42
0.00000001
 43
0.00000001
 40
0.0
 40
0.0
 40
0.0
 40
0.0
 40
0.0459716024786294
 40
0.2994003828534766
 40
0.5523689976864486
 40
0.8048050169236208
 40
0.9999999999999999
 40
0.9999999999999999
 40
0.9999999999999999
 40
0.9999999999999999
 10
277.5091460847275
 20
-65.032480815525
 30
0.0
 10
277.5393617569948
 20
-65.10160599787105
 30
0.0
 10
277.7361481067679
 20
-65.55179926813697
 30
0.0
 10
278.1654222102893
 20
-66.31536566679087
 30
0.0
 10
278.8007354817661
 20
-67.31129057552016
 30
0.0
 10
279.4463139922449
 20
-68.16309422455453
 30
0.0
 10
279.9049144029671
 20
-68.64749128394453
 30
0.0
 10
280.1048927309808
 20
-68.85871855667854
 30
0.0
  0
LINE
  5
E1
330
1F
100
AcDbEntity
  8
0
  6
Continuous
 62
     7
370
    25
100
AcDbLine
 10
335.4710495592
 20
-22.8623388585
 30
0.0
 11
316.7327198578
 21
-12.0449313768
 31
0.0
  0
LINE
  5
E2
330
1F
100
AcDbEntity
  8
0
  6
Continuous
 62
     7
370
    25
100
AcDbLine
 10
282.7354829481
 20
-70.9362540187
 30
0.0
 11
301.4738126496
 21
-81.7536615004
 31
0.0
  0
LWPOLYLINE
  5
E3
330
1F
100
AcDbEntity
  8
0
  6
Continuous
 62
     7
370
    25
100
AcDbPolyline
 90
      105
 70
   128
 43
0.0
 10
224.7807825972
 20
-23.9378182936
 10
224.8214200536
 20
-22.3613613093
 10
224.9431841411
 20
-20.743737637
 10
225.1456305557
 20
-19.0908498103
 10
225.4280205925
 20
-17.4087290375
 10
225.7893238408
 20
-15.7035131948
 10
226.2282219443
 20
-13.98142443
 10
226.7431134113
 20
-12.2487464583
 10
227.3321194588
 20
-10.5118016336
 10
227.9930908676
 20
-8.7769278792
 10
228.7236158246
 20
-7.0504555614
 10
229.5210287235
 20
-5.3386843903
 10
230.3824198911
 20
-3.6478604334
 10
231.3046462045
 20
-1.9841533239
 10
232.2843425599
 20
-0.3536337487
 10
233.3179341515
 20
1.2377487033
 10
234.4016495157
 20
2.7841872499
 10
235.5315342926
 20
4.2800391046
 10
236.7034656553
 20
5.7198460663
 10
237.9131673532
 20
7.0983544355
 10
239.1562253161
 20
8.4105341846
 10
240.4281037602
 20
9.651597312
 10
241.7241617391
 20
10.8170153129
 10
243.0396700777
 20
11.9025357036
 10
244.3698286289
 20
12.9041975377
 10
245.7097837881
 20
13.8183458598
 10
247.0546462045
 20
14.641645042
 10
248.399508621
 20
15.3710909547
 10
249.7394637802
 20
16.0040219289
 10
251.0696223314
 20
16.5381284682
 10
252.38513067
 20
16.9714616757
 10
253.6811886489
 20
17.3024403654
 10
254.953067093
 20
17.5298568322
 10
256.1961250559
 20
17.6528812578
 10
257.4058267538
 20
17.6710647397
 10
258.5777581165
 20
17.5843409281
 10
259.7076428934
 20
17.3930262689
 10
260.7913582576
 20
17.0978188486
 10
261.8249498492
 20
16.6997958469
 10
262.8046462045
 20
16.2004096068
 10
263.726872518
 20
15.6014823343
 10
264.5882636856
 20
14.9051994501
 10
265.3856765845
 20
14.1141016151
 10
266.1162015415
 20
13.2310754593
 10
266.7771729503
 20
12.2593430496
 10
267.3661789978
 20
11.202450132
 10
267.8810704648
 20
10.0642531942
 10
268.3199685683
 20
8.8489053934
 10
268.6812718166
 20
7.560841402
 10
268.9636618534
 20
6.2047612256
 10
269.166108268
 20
4.785613054
 10
269.2878723555
 20
3.3085752047
 10
269.3285098119
 20
1.7790372288
 10
269.2878723555
 20
0.2025802445
 10
269.166108268
 20
-1.4150434278
 10
268.9636618534
 20
-3.0679312545
 10
268.6812718166
 20
-4.7500520273
 10
268.3199685683
 20
-6.45526787
 10
267.8810704648
 20
-8.1773566347
 10
267.3661789978
 20
-9.9100346065
 10
266.7771729503
 20
-11.6469794312
 10
266.1162015415
 20
-13.3818531856
 10
265.3856765845
 20
-15.1083255034
 10
264.5882636856
 20
-16.8200966745
 10
263.726872518
 20
-18.5109206314
 10
262.8046462045
 20
-20.1746277408
 10
261.8249498492
 20
-21.8051473161
 10
260.7913582576
 20
-23.3965297681
 10
259.7076428934
 20
-24.9429683147
 10
258.5777581165
 20
-26.4388201694
 10
257.4058267538
 20
-27.8786271311
 10
256.1961250559
 20
-29.2571355003
 10
254.953067093
 20
-30.5693152493
 10
253.6811886489
 20
-31.8103783767
 10
252.38513067
 20
-32.9757963777
 10
251.0696223314
 20
-34.0613167683
 10
249.7394637802
 20
-35.0629786025
 10
248.399508621
 20
-35.9771269246
 10
247.0546462045
 20
-36.8004261068
 10
245.7097837881
 20
-37.5298720195
 10
244.3698286289
 20
-38.1628029937
 10
243.0396700777
 20
-38.696909533
 10
241.7241617391
 20
-39.1302427405
 10
240.4281037602
 20
-39.4612214302
 10
239.1562253161
 20
-39.688637897
 10
237.9131673532
 20
-39.8116623226
 10
236.7034656553
 20
-39.8298458045
 10
235.5315342926
 20
-39.7431219929
 10
234.4016495157
 20
-39.5518073337
 10
233.3179341515
 20
-39.2565999134
 10
232.2843425599
 20
-38.8585769117
 10
231.3046462045
 20
-38.3591906715
 10
230.3824198911
 20
-37.760263399
 10
229.5210287235
 20
-37.0639805149
 10
228.7236158246
 20
-36.2728826799
 10
227.9930908676
 20
-35.3898565241
 10
227.3321194588
 20
-34.4181241144
 10
226.7431134113
 20
-33.3612311968
 10
226.2282219443
 20
-32.223034259
 10
225.7893238408
 20
-31.0076864582
 10
225.4280205925
 20
-29.7196224668
 10
225.1456305557
 20
-28.3635422904
 10
224.9431841411
 20
-26.9443941188
 10
224.8214200536
 20
-25.4673562695
 10
224.7807825972
 20
-23.9378182936
  0
LWPOLYLINE
  5
E4
330
1F
100
AcDbEntity
  8
0
  6
Continuous
 62
     7
370
    25
100
AcDbPolyline
 90
       54
 70
   128
 43
0.0
 10
315.1292680514
 20
-14.0059515048
 10
315.1305480124
 20
-14.0066905307
 10
316.0527743258
 20
-14.6056178032
 10
316.9141654934
 20
-15.3019006873
 10
317.7115783923
 20
-16.0929985224
 10
318.4421033493
 20
-16.9760246781
 10
319.1030747581
 20
-17.9477570879
 10
319.6920808056
 20
-19.0046500055
 10
320.2069722726
 20
-20.1428469432
 10
320.6458703761
 20
-21.358194744
 10
321.0071736244
 20
-22.6462587355
 10
321.2895636612
 20
-24.0023389118
 10
321.4920100758
 20
-25.4214870835
 10
321.6137741633
 20
-26.8985249327
 10
321.6544116197
 20
-28.4280629086
 10
321.6137741633
 20
-30.004519893
 10
321.4920100758
 20
-31.6221435652
 10
321.2895636612
 20
-33.2750313919
 10
321.0071736244
 20
-34.9571521648
 10
320.6458703761
 20
-36.6623680074
 10
320.2069722726
 20
-38.3844567722
 10
319.6920808056
 20
-40.1171347439
 10
319.1030747581
 20
-41.8540795686
 10
318.4421033493
 20
-43.588953323
 10
317.7115783923
 20
-45.3154256408
 10
316.9141654934
 20
-47.0271968119
 10
316.0527743258
 20
-48.7180207688
 10
315.1305480124
 20
-50.3817278783
 10
314.150851657
 20
-52.0122474536
 10
313.1172600654
 20
-53.6036299055
 10
312.0335447012
 20
-55.1500684521
 10
310.9036599243
 20
-56.6459203069
 10
309.7317285616
 20
-58.0857272685
 10
308.5220268637
 20
-59.4642356377
 10
307.2789689008
 20
-60.7764153868
 10
306.0070904567
 20
-62.0174785142
 10
304.7110324778
 20
-63.1828965152
 10
303.3955241392
 20
-64.2684169058
 10
302.065365588
 20
-65.2700787399
 10
300.7254104288
 20
-66.1842270621
 10
299.3805480124
 20
-67.0075262442
 10
298.035685596
 20
-67.7369721569
 10
296.6957304367
 20
-68.3699031312
 10
295.3655718855
 20
-68.9040096704
 10
294.0500635469
 20
-69.3373428779
 10
292.754005568
 20
-69.6683215677
 10
291.4821271239
 20
-69.8957380344
 10
290.239069161
 20
-70.0187624601
 10
289.0293674631
 20
-70.0369459419
 10
287.8574361004
 20
-69.9502221304
 10
286.7275513235
 20
-69.7589074712
 10
285.6438359593
 20
-69.4637000508
 10
284.6102443677
 20
-69.0656770492
 10
283.6318279733
 20
-68.5670298348
  0
LWPOLYLINE
  5
E5
330
1F
100
AcDbEntity
  8
0
  6
Continuous
 62
     7
370
    25
100
AcDbPolyline
 90
       95
 70
   128
 43
0.0
 10
228.8820019281
 20
-21.5702347693
 10
228.9225836485
 20
-20.1451574182
 10
229.0441475619
 20
-18.6795901514
 10
229.2461507343
 20
-17.1800785481
 10
229.5276909706
 20
-15.6533197911
 10
229.8875108438
 20
-14.1061327558
 10
230.3240033108
 20
-12.5454275549
 10
230.8352188904
 20
-10.9781746768
 10
231.4188743697
 20
-9.4113738533
 10
232.0723630017
 20
-7.8520227972
 10
232.7927661475
 20
-6.3070859489
 10
233.5768663117
 20
-4.7834633713
 10
234.4211615127
 20
-3.2879599328
 10
235.3218809232
 20
-1.8272549147
 10
236.2750017116
 20
-0.4078721803
 10
237.2762670091
 20
0.9638489625
 10
238.3212049218
 20
2.2817820743
 10
239.4051485033
 20
3.5400409457
 10
240.5232565986
 20
4.7330058873
 10
241.6705354653
 20
5.8553488279
 10
242.8418610776
 20
6.9020571115
 10
244.032002011
 20
7.8684558849
 10
245.2356428071
 20
8.7502289766
 10
246.4474077139
 20
9.5434381738
 10
247.6618846952
 20
10.2445408117
 10
248.873649602
 20
10.8504055958
 10
250.0772903981
 20
11.3583265868
 10
251.2674313315
 20
11.7660352864
 10
252.4387569438
 20
12.0717107684
 10
253.5860358105
 20
12.273987812
 10
254.7041439058
 20
12.3719629988
 10
255.7880874873
 20
12.3651987479
 10
256.8330254
 20
12.2537252699
 10
257.8342906975
 20
12.0380404326
 10
258.7874114859
 20
11.7191075367
 10
259.6881308964
 20
11.298351014
 10
260.5324260974
 20
10.7776500654
 10
261.3165262616
 20
10.1593302675
 10
262.0369294074
 20
9.4461531867
 10
262.6904180394
 20
8.6413040451
 10
263.2740735187
 20
7.7483774942
 10
263.7852890983
 20
6.7713615608
 10
264.2217815653
 20
5.7146198352
 10
264.5816014385
 20
4.5828719825
 10
264.8631416748
 20
3.3811726633
 10
265.0651448472
 20
2.1148889586
 10
265.1867087606
 20
0.7896763986
 10
265.227290481
 20
-0.5885462955
 10
265.1867087606
 20
-2.0136236466
 10
265.0651448472
 20
-3.4791909134
 10
264.8631416748
 20
-4.9787025167
 10
264.5816014385
 20
-6.5054612737
 10
264.2217815653
 20
-8.052648309
 10
263.7852890983
 20
-9.6133535099
 10
263.2740735187
 20
-11.1806063879
 10
262.6904180394
 20
-12.7474072115
 10
262.0369294074
 20
-14.3067582676
 10
261.3165262616
 20
-15.8516951159
 10
260.5324260974
 20
-17.3753176935
 10
259.6881308964
 20
-18.870821132
 10
258.7874114859
 20
-20.33152615
 10
257.8342906975
 20
-21.7509088844
 10
256.8330254
 20
-23.1226300273
 10
255.7880874873
 20
-24.4405631391
 10
254.7041439058
 20
-25.6988220105
 10
253.5860358105
 20
-26.8917869521
 10
252.4387569438
 20
-28.0141298927
 10
251.2674313315
 20
-29.0608381763
 10
250.0772903981
 20
-30.0272369497
 10
248.873649602
 20
-30.9090100414
 10
247.6618846952
 20
-31.7022192386
 10
246.4474077139
 20
-32.4033218765
 10
245.2356428071
 20
-33.0091866606
 10
244.032002011
 20
-33.5171076516
 10
242.8418610776
 20
-33.9248163512
 10
241.6705354653
 20
-34.2304918332
 10
240.5232565986
 20
-34.4327688768
 10
239.4051485033
 20
-34.5307440636
 10
238.3212049218
 20
-34.5239798126
 10
237.2762670091
 20
-34.4125063347
 10
236.2750017116
 20
-34.1968214974
 10
235.3218809232
 20
-33.8778886015
 10
234.4211615127
 20
-33.4571320788
 10
233.5768663117
 20
-32.9364311301
 10
232.7927661475
 20
-32.3181113323
 10
232.0723630017
 20
-31.6049342515
 10
231.4188743697
 20
-30.8000851099
 10
230.8352188904
 20
-29.907158559
 10
230.3240033108
 20
-28.9301426256
 10
229.8875108438
 20
-27.8734009
 10
229.5276909706
 20
-26.7416530473
 10
229.2461507343
 20
-25.5399537281
 10
229.0441475619
 20
-24.2736700233
 10
228.9225836485
 20
-22.9484574634
 10
228.8820019281
 20
-21.5702347693
  0
ARC
  5
E6
330
1F
100
AcDbEntity
  8
0
  6
Continuous
 62
     7
370
    25
100
AcDbCircle
 10
310.9623740439
 20
-22.0404175618
 30
0.0
 40
11.53932628531403
100
AcDbArc
 50
43.9621071795
 51
76.1206979791
  0
ARC
  5
E7
330
1F
100
AcDbEntity
  8
0
  6
Continuous
 62
     7
370
    25
100
AcDbCircle
 10
288.5058797478
 20
-60.9400175403
 30
0.0
 40
11.53997628690401
100
AcDbArc
 50
223.7647139699
 51
255.9183374091
  0
LWPOLYLINE
  5
E8
330
1F
100
AcDbEntity
  8
0
  6
Continuous
 62
     7
370
    25
100
AcDbPolyline
 90
       56
 70
   128
 43
0.0
 10
335.4710495592
 20
-22.8623388585
 10
335.9596794744
 20
-23.1611202366
 10
336.8893885987
 20
-23.8307981568
 10
337.7567805685
 20
-24.5968339143
 10
338.558920404
 20
-25.4566354867
 10
339.293093918
 20
-26.4072935776
 10
339.9568168997
 20
-27.445591461
 10
340.5478435206
 20
-28.5680158654
 10
341.0641739336
 20
-29.7707688621
 10
341.5040610402
 20
-31.0497807156
 10
341.8660164015
 20
-32.4007236546
 10
342.1488152753
 20
-33.8190265158
 10
342.3515007596
 20
-35.2998902114
 10
342.4733870309
 20
-36.8383039674
 10
342.5140616647
 20
-38.4290622785
 10
342.4733870309
 20
-40.0667825221
 10
342.3515007596
 20
-41.7459231715
 10
342.1488152753
 20
-43.4608025461
 10
341.8660164015
 20
-45.205618037
 10
341.5040610402
 20
-46.9744657409
 10
341.0641739336
 20
-48.761360437
 10
340.5478435206
 20
-50.5602558393
 10
339.9568168997
 20
-52.3650650552
 10
339.293093918
 20
-54.1696811817
 10
338.558920404
 20
-55.967997969
 10
337.7567805685
 20
-57.7539304822
 10
336.8893885987
 20
-59.5214356912
 10
335.9596794744
 20
-61.2645329178
 10
334.9707990372
 20
-62.9773240728
 10
333.9260933452
 20
-64.6540136129
 10
332.829097352
 20
-66.2889281517
 10
331.6835229448
 20
-67.8765356557
 10
330.4932463846
 20
-69.4114641638
 10
329.2622951906
 20
-70.8885199638
 10
327.9948345119
 20
-72.3027051663
 10
326.6951530344
 20
-73.6492346163
 10
325.3676484687
 20
-74.9235520844
 10
324.0168126701
 20
-76.1213456837
 10
322.6472164393
 20
-77.2385624596
 10
321.2634940565
 20
-78.2714221045
 10
319.8703276001
 20
-79.216429748
 10
318.4724311044
 20
-80.0703877836
 10
317.0745346087
 20
-80.8304066874
 10
315.6813681523
 20
-81.4939147962
 10
314.2976457694
 20
-82.0586670086
 10
312.9280495386
 20
-82.5227523817
 10
311.57721374
 20
-82.8846005976
 10
310.2497091744
 20
-83.1429872765
 10
308.9500276969
 20
-83.2970381197
 10
307.6825670182
 20
-83.3462318678
 10
306.4516158242
 20
-83.2904020648
 10
305.261339264
 20
-83.1297376211
 10
304.1157648567
 20
-82.8647821742
 10
303.0187688635
 20
-82.4964322497
 10
301.9740631716
 20
-82.0259342269
 10
301.4738126496
 20
-81.7536615004
  0
LINE
  5
E9
330
1F
100
AcDbEntity
  8
0
  6
Continuous
 62
     7
370
    25
100
AcDbLine
 10
318.4724311044
 20
-86.2509643228
 30
0.0
 11
326.9577124786
 21
-91.1494129937
 31
0.0
  0
LINE
  5
EA
330
1F
100
AcDbEntity
  8
0
  6
Continuous
 62
     7
370
    25
100
AcDbLine
 10
318.4724311044
 20
-86.2509643228
 30
0.0
 11
343.9282752271
 21
-54.5841362383
 31
0.0
  0
LINE
  5
EB
330
1F
100
AcDbEntity
  8
0
  6
Continuous
 62
     7
370
    25
100
AcDbLine
 10
343.9282752271
 20
-54.5841362383
 30
0.0
 11
352.4135566013
 21
-59.4825849092
 31
0.0
  0
LINE
  5
EC
330
1F
100
AcDbEntity
  8
0
  6
Continuous
 62
     7
370
    25
100
AcDbLine
 10
326.9577124786
 20
-91.1494129937
 30
0.0
 11
352.4135566013
 21
-59.4825849092
 31
0.0
  0
LINE
  5
ED
330
1F
100
AcDbEntity
  8
0
  6
Continuous
 62
     7
370
    25
100
AcDbLine
 10
293.0165869817
 20
-76.871409044
 30
0.0
 11
293.0165869817
 21
-83.9748282639
 31
0.0
  0
LINE
  5
EE
330
1F
100
AcDbEntity
  8
0
  6
Continuous
 62
     7
370
    25
100
AcDbLine
 10
343.9282752271
 20
-20.641172095
 30
0.0
 11
329.368288475
 21
-19.3392898748
 31
0.0
  0
LINE
  5
EF
330
1F
100
AcDbEntity
  8
0
  6
Continuous
 62
     7
370
    25
100
AcDbLine
 10
343.9282752271
 20
-54.5841362383
 30
0.0
 11
343.9282752271
 21
-20.641172095
 31
0.0
  0
LINE
  5
F0
330
1F
100
AcDbEntity
  8
0
  6
Continuous
 62
     7
370
    25
100
AcDbLine
 10
293.0165869817
 20
-83.9748282639
 30
0.0
 11
318.4724311044
 21
-86.2509643228
 31
0.0
  0
LINE
  5
F1
330
1F
100
AcDbEntity
  8
0
  6
Continuous
 62
     7
370
    25
100
AcDbLine
 10
343.9282752271
 20
-20.641172095
 30
0.0
 11
352.4135566013
 21
-25.5396207659
 31
0.0
  0
LINE
  5
F2
330
1F
100
AcDbEntity
  8
0
  6
Continuous
 62
     7
370
    25
100
AcDbLine
 10
352.4135566013
 20
-59.4825849092
 30
0.0
 11
352.4135566013
 21
-25.5396207659
 31
0.0
  0
LWPOLYLINE
  5
F3
330
1F
100
AcDbEntity
  8
0
  6
Continuous
 62
     7
370
    25
100
AcDbPolyline
 90
       54
 70
   128
 43
0.0
 10
352.4135566013
 20
-33.9027646926
 10
352.9490005968
 20
-34.3378813657
 10
353.7736885495
 20
-35.1251406177
 10
354.5327492567
 20
-36.003997517
 10
355.2235660788
 20
-36.9714224618
 10
355.843757627
 20
-38.0240805378
 10
356.3911859728
 20
-39.1583430147
 10
356.8639640171
 20
-40.3702998546
 10
357.260461996
 20
-41.6557731913
 10
357.579313099
 20
-43.010331732
 10
357.8194181802
 20
-44.4293060326
 10
357.9799495476
 20
-45.9078045948
 10
358.0603538164
 20
-47.4407307278
 10
358.0603538164
 20
-49.0228001177
 10
357.9799495476
 20
-50.6485590434
 10
357.8194181802
 20
-52.3124031773
 10
357.579313099
 20
-54.0085969038
 10
357.260461996
 20
-55.7312930919
 10
356.8639640171
 20
-57.4745532509
 10
356.3911859728
 20
-59.2323680018
 10
355.843757627
 20
-60.9986777932
 10
355.2235660788
 20
-62.7673937891
 10
354.5327492567
 20
-64.5324188593
 10
353.7736885495
 20
-66.2876685965
 10
352.9490005968
 20
-68.0270922914
 10
352.0615282686
 20
-69.7446937902
 10
351.1143308661
 20
-71.4345521645
 10
350.1106735748
 20
-73.0908421227
 10
349.0540162093
 20
-74.70785409
 10
347.9480012866
 20
-76.2800138912
 10
346.7964414691
 20
-77.8019019657
 10
345.6033064222
 20
-79.2682720503
 10
344.3727091294
 20
-80.6740692632
 10
343.1088917146
 20
-82.0144475304
 10
341.8162108182
 20
-83.2847862903
 10
340.4991225792
 20
-84.4807064221
 10
339.1621672734
 20
-85.5980853411
 10
337.8099536628
 20
-86.633071211
 10
336.4471431078
 20
-87.5820962209
 10
335.0784334988
 20
-88.441888885
 10
333.7085430612
 20
-89.2094853199
 10
332.3421940913
 20
-89.8822394618
 10
330.984096677
 20
-90.4578321876
 10
329.6389324614
 20
-90.93427931
 10
328.3113385042
 20
-91.3099384172
 10
327.0058912969
 20
-91.5835145342
 10
325.7270909863
 20
-91.7540645877
 10
324.4793458622
 20
-91.8210006562
 10
323.2669571603
 20
-91.7840919971
 10
322.0941042358
 20
-91.6434658424
 10
320.9648301556
 20
-91.3996069595
 10
319.8830277614
 20
-91.0533559805
 10
318.8524262502
 20
-90.6059065042
 10
318.434091271
 20
-90.3872728153
  0
LINE
  5
F4
330
1F
100
AcDbEntity
  8
0
  6
Continuous
 62
     7
370
    25
100
AcDbLine
 10
293.0165869817
 20
-83.9748282639
 30
0.0
 11
301.5018683559
 21
-88.8732769349
 31
0.0
  0
LINE
  5
F5
330
1F
100
AcDbEntity
  8
0
  6
Continuous
 62
     7
370
    25
100
AcDbLine
 10
301.5018683559
 20
-88.8732769349
 30
0.0
 11
326.9577124786
 21
-91.1494129937
 31
0.0
  0
LWPOLYLINE
  5
F6
330
1F
100
AcDbEntity
  8
0
  6
Continuous
 62
     1
370
    25
100
AcDbPolyline
 90
       68
 70
   128
 43
0.0
 10
309.4279276683
 20
-10.7146377593
 10
310.0117376267
 20
-10.7047035651
 10
311.2245865972
 20
-10.7597123416
 10
312.3973590904
 20
-10.9180140729
 10
313.5260868152
 20
-11.1790731161
 10
314.6069505144
 20
-11.5420061301
 10
315.6362928873
 20
-12.0055850643
 10
316.6106309652
 20
-12.5682413144
 10
317.5266678964
 20
-13.2280710298
 10
318.381304102
 20
-13.9828415556
 10
319.1716477635
 20
-14.8299989872
 10
319.8950246082
 20
-15.7666768121
 10
320.5489869577
 20
-16.789705609
 10
321.1313220106
 20
-17.8956237722
 10
321.6400593294
 20
-19.0806892248
 10
322.0734775079
 20
-20.3408920804
 10
322.4301099963
 20
-21.6719682115
 10
322.7087500631
 20
-23.0694136778
 10
322.9084548785
 20
-24.5284999661
 10
323.0285487047
 20
-26.0442899903
 10
323.0686251821
 20
-27.6116547968
 10
323.0285487047
 20
-29.2252909193
 10
322.9084548785
 20
-30.8797383238
 10
322.7087500631
 20
-32.5693988841
 10
322.4301099963
 20
-34.2885553236
 10
322.0734775079
 20
-36.0313905612
 10
321.6400593294
 20
-37.7920073942
 10
321.1313220106
 20
-39.5644484523
 10
320.5489869577
 20
-41.3427163563
 10
319.8950246082
 20
-43.1207940103
 10
319.1716477635
 20
-44.8926649624
 10
318.381304102
 20
-46.6523337623
 10
317.5266678964
 20
-48.3938462476
 10
316.6106309652
 20
-50.1113096915
 10
315.6362928873
 20
-51.7989127412
 10
314.6069505144
 20
-53.4509450822
 10
313.5260868152
 20
-55.0618167601
 10
312.3973590904
 20
-56.626077095
 10
311.2245865972
 20
-58.138433125
 10
310.0117376267
 20
-59.5937675162
 10
308.7629160757
 20
-60.9871558775
 10
307.4823475611
 20
-62.3138834238
 10
306.1743651213
 20
-63.5694609292
 10
304.8433945551
 20
-64.7496399166
 10
303.4939394453
 20
-65.8504270342
 10
302.130565921
 20
-66.8680975665
 10
300.7578872066
 20
-67.7992080389
 10
299.3805480124
 20
-68.640607868
 10
298.0032088181
 20
-69.3894500233
 10
296.6305301037
 20
-70.0432006599
 10
295.2671565794
 20
-70.5996476926
 10
293.9177014696
 20
-71.0569082809
 10
292.5867309034
 20
-71.4134351995
 10
291.2787484636
 20
-71.6680220743
 10
289.998179949
 20
-71.8198074639
 10
288.749358398
 20
-71.8682777745
 10
287.5365094275
 20
-71.8132689981
 10
286.3637369343
 20
-71.6549672667
 10
285.2350092095
 20
-71.3939082235
 10
284.1541455103
 20
-71.0309752096
 10
283.1248031374
 20
-70.5673962754
 10
282.1504650595
 20
-70.0047400252
 10
281.2344281283
 20
-69.3449103098
 10
280.3797919227
 20
-68.590139784
 10
279.5894482612
 20
-67.7429823524
 10
278.8660714165
 20
-66.8063045275
 10
278.212109067
 20
-65.7832757307
 10
277.9304875902
 20
-65.2757160892
  0
LWPOLYLINE
  5
F7
330
1F
100
AcDbEntity
  8
0
  6
Continuous
 62
     1
370
    25
100
AcDbPolyline
 90
       50
 70
   128
 43
0.0
 10
319.2683702388
 20
-14.0300194239
 10
319.8205907026
 20
-14.639228005
 10
320.5547642166
 20
-15.5898860959
 10
321.2184871983
 20
-16.6281839793
 10
321.8095138191
 20
-17.7506083838
 10
322.3258442322
 20
-18.9533613805
 10
322.7657313387
 20
-20.2323732339
 10
323.1276867001
 20
-21.5833161729
 10
323.4104855738
 20
-23.0016190342
 10
323.6131710581
 20
-24.4824827298
 10
323.7350573295
 20
-26.0208964857
 10
323.7757319633
 20
-27.6116547968
 10
323.7350573295
 20
-29.2493750405
 10
323.6131710581
 20
-30.9285156898
 10
323.4104855738
 20
-32.6433950645
 10
323.1276867001
 20
-34.3882105554
 10
322.7657313387
 20
-36.1570582592
 10
322.3258442322
 20
-37.9439529553
 10
321.8095138191
 20
-39.7428483576
 10
321.2184871983
 20
-41.5476575736
 10
320.5547642166
 20
-43.3522737
 10
319.8205907026
 20
-45.1505904873
 10
319.018450867
 20
-46.9365230006
 10
318.1510588972
 20
-48.7040282096
 10
317.221349773
 20
-50.4471254362
 10
316.2324693357
 20
-52.1599165911
 10
315.1877636438
 20
-53.8366061313
 10
314.0907676506
 20
-55.47152067
 10
312.9451932433
 20
-57.0591281741
 10
311.7549166831
 20
-58.5940566822
 10
310.5239654891
 20
-60.0711124821
 10
309.2565048105
 20
-61.4852976846
 10
307.956823333
 20
-62.8318271347
 10
306.6293187673
 20
-64.1061446028
 10
305.2784829687
 20
-65.303938202
 10
303.9088867379
 20
-66.421154978
 10
302.525164355
 20
-67.4540146228
 10
301.1319978986
 20
-68.3990222664
 10
299.7341014029
 20
-69.2529803019
 10
298.3362049073
 20
-70.0129992058
 10
296.9430384509
 20
-70.6765073146
 10
295.559316068
 20
-71.2412595269
 10
294.1897198372
 20
-71.7053449
 10
292.8388840386
 20
-72.067193116
 10
291.5113794729
 20
-72.3255797949
 10
290.2116979954
 20
-72.479630638
 10
288.9442373168
 20
-72.5288243862
 10
287.7132861228
 20
-72.4729945832
 10
286.5230095626
 20
-72.3123301394
 10
285.6981505077
 20
-72.1332167799
  0
LINE
  5
F8
330
1F
100
AcDbEntity
  8
0
  6
Continuous
 62
     7
370
    25
100
AcDbLine
 10
105.8323425481
 20
-14.2599942924
 30
0.0
 11
105.8323425481
 21
-40.7599942924
 31
0.0
  0
LINE
  5
F9
330
1F
100
AcDbEntity
  8
0
  6
Continuous
 62
     7
370
    25
100
AcDbLine
 10
173.8323425481
 20
-40.7599942924
 30
0.0
 11
173.8323425481
 21
-14.2599942924
 31
0.0
  0
ARC
  5
FA
330
1F
100
AcDbEntity
  8
0
  6
Continuous
 62
     7
370
    25
100
AcDbCircle
 10
106.3323425481
 20
-40.7599942924
 30
0.0
 40
0.5
100
AcDbArc
 50
180.0
 51
270.0
  0
ARC
  5
FB
330
1F
100
AcDbEntity
  8
0
  6
Continuous
 62
     7
370
    25
100
AcDbCircle
 10
173.3323425481
 20
-40.7599942924
 30
0.0
 40
0.5
100
AcDbArc
 50
270.0
 51
0.0
  0
LINE
  5
FC
330
1F
100
AcDbEntity
  8
0
  6
Continuous
 62
     7
370
    25
100
AcDbLine
 10
106.8323425481
 20
8.7400057076
 30
0.0
 11
106.8323425481
 21
-2.2599942924
 31
0.0
  0
LINE
  5
FD
330
1F
100
AcDbEntity
  8
0
  6
Continuous
 62
     7
370
    25
100
AcDbLine
 10
172.8323425481
 20
-2.2599942924
 30
0.0
 11
172.8323425481
 21
8.7400057076
 31
0.0
  0
LINE
  5
FE
330
1F
100
AcDbEntity
  8
0
  6
Continuous
 62
     7
370
    25
100
AcDbLine
 10
108.3323425481
 20
-41.2599942924
 30
0.0
 11
108.3323425481
 21
-115.2599942924
 31
0.0
  0
LINE
  5
FF
330
1F
100
AcDbEntity
  8
0
  6
Continuous
 62
     7
370
    25
100
AcDbLine
 10
171.3323425481
 20
-115.2599942924
 30
0.0
 11
171.3323425481
 21
-41.2599942924
 31
0.0
  0
LINE
  5
100
330
1F
100
AcDbEntity
  8
0
  6
Continuous
 62
     7
370
    25
100
AcDbLine
 10
139.8323425481
 20
-14.2599942924
 30
0.0
 11
139.8323425481
 21
-2.2599942924
 31
0.0
  0
LINE
  5
101
330
1F
100
AcDbEntity
  8
0
  6
Continuous
 62
     7
370
    25
100
AcDbLine
 10
139.8323425481
 20
-14.2599942924
 30
0.0
 11
103.8323425481
 21
-14.2599942924
 31
0.0
  0
LINE
  5
102
330
1F
100
AcDbEntity
  8
0
  6
Continuous
 62
     7
370
    25
100
AcDbLine
 10
103.8323425481
 20
-14.2599942924
 30
0.0
 11
103.8323425481
 21
-2.2599942924
 31
0.0
  0
LINE
  5
103
330
1F
100
AcDbEntity
  8
0
  6
Continuous
 62
     7
370
    25
100
AcDbLine
 10
139.8323425481
 20
-2.2599942924
 30
0.0
 11
103.8323425481
 21
-2.2599942924
 31
0.0
  0
LINE
  5
104
330
1F
100
AcDbEntity
  8
0
  6
Continuous
 62
     7
370
    25
100
AcDbLine
 10
175.8323425481
 20
-14.2599942924
 30
0.0
 11
175.8323425481
 21
-2.2599942924
 31
0.0
  0
LINE
  5
105
330
1F
100
AcDbEntity
  8
0
  6
Continuous
 62
     7
370
    25
100
AcDbLine
 10
175.8323425481
 20
-14.2599942924
 30
0.0
 11
139.8323425481
 21
-14.2599942924
 31
0.0
  0
LINE
  5
106
330
1F
100
AcDbEntity
  8
0
  6
Continuous
 62
     7
370
    25
100
AcDbLine
 10
175.8323425481
 20
-2.2599942924
 30
0.0
 11
139.8323425481
 21
-2.2599942924
 31
0.0
  0
LINE
  5
107
330
1F
100
AcDbEntity
  8
0
  6
Continuous
 62
     7
370
    25
100
AcDbLine
 10
106.3323425481
 20
-41.2599942924
 30
0.0
 11
173.3323425479
 21
-41.2599942924
 31
0.0
  0
LINE
  5
108
330
1F
100
AcDbEntity
  8
0
  6
Continuous
 62
     7
370
    25
100
AcDbLine
 10
106.8323425481
 20
8.7400057076
 30
0.0
 11
172.8323425481
 21
8.7400057076
 31
0.0
  0
LINE
  5
109
330
1F
100
AcDbEntity
  8
0
  6
Continuous
 62
     7
370
    25
100
AcDbLine
 10
108.3323425481
 20
-115.2599942924
 30
0.0
 11
171.3323425481
 21
-115.2599942924
 31
0.0
  0
LINE
  5
10A
330
1F
100
AcDbEntity
  8
0
  6
Continuous
 62
     1
370
    25
100
AcDbLine
 10
105.8323425481
 20
-40.7599942924
 30
0.0
 11
173.8323425481
 21
-40.7599942924
 31
0.0
  0
ENDSEC
  0
SECTION
  2
OBJECTS
  0
DICTIONARY
  5
C
330
0
100
AcDbDictionary
281
     1
  3
ACAD_GROUP
350
D
  3
ACAD_LAYOUT
350
1A
  3
ACAD_MLINESTYLE
350
17
  3
ACAD_PLOTSETTINGS
350
19
  3
ACAD_PLOTSTYLENAME
350
E
  3
ACAD_SCALELIST
350
47
  3
DWGPROPS
350
10B
  0
DICTIONARY
  5
D
102
{ACAD_REACTORS
330
C
102
}
330
C
100
AcDbDictionary
281
     1
  0
DICTIONARY
  5
1A
102
{ACAD_REACTORS
330
C
102
}
330
C
100
AcDbDictionary
281
     1
  3
Layout1
350
1E
  3
Layout2
350
26
  3
Model
350
22
  0
DICTIONARY
  5
17
102
{ACAD_REACTORS
330
C
102
}
330
C
100
AcDbDictionary
281
     1
  3
Standard
350
18
  0
DICTIONARY
  5
19
102
{ACAD_REACTORS
330
C
102
}
330
C
100
AcDbDictionary
281
     1
  0
ACDBDICTIONARYWDFLT
  5
E
102
{ACAD_REACTORS
330
C
102
}
330
C
100
AcDbDictionary
281
     1
  3
Normal
350
F
100
AcDbDictionaryWithDefault
340
F
  0
DICTIONARY
  5
47
102
{ACAD_REACTORS
330
C
102
}
330
C
100
AcDbDictionary
281
     1
  3
A0
350
48
  3
A1
350
49
  3
A2
350
4A
  3
A3
350
4B
  3
A4
350
4C
  3
A5
350
4D
  3
A6
350
4E
  3
A7
350
4F
  3
A8
350
50
  3
A9
350
51
  3
B0
350
52
  3
B1
350
53
  3
B2
350
54
  3
B3
350
55
  3
B4
350
56
  3
B5
350
57
  3
B6
350
58
  3
B7
350
59
  3
B8
350
5A
  3
B9
350
5B
  3
C0
350
5C
  3
C1
350
5D
  3
C2
350
5E
  3
C3
350
5F
  3
C4
350
60
  3
C5
350
61
  3
C6
350
62
  3
C7
350
63
  3
C8
350
64
  3
C9
350
65
  3
D0
350
66
  3
D1
350
67
  3
D2
350
68
  0
XRECORD
  5
10B
102
{ACAD_REACTORS
330
C
102
}
330
C
100
AcDbXrecord
280
     1
  1
DWGPROPS COOKIE
  2

  3

  4

  6

  7

  8
b.kav
  9

300
=
301
=
302
=
303
=
304
=
305
=
306
=
307
=
308
=
309
=
 40
0.0
 41
2459935.58450846
 42
2459935.584508646
  1

 90
        0
  0
LAYOUT
  5
1E
102
{ACAD_REACTORS
330
1A
102
}
330
1A
100
AcDbPlotSettings
  1

  2
none_device
  4

  6

 40
0.0
 41
0.0
 42
0.0
 43
0.0
 44
0.0
 45
0.0
 46
0.0
 47
0.0
 48
0.0
 49
0.0
140
0.0
141
0.0
142
1.0
143
1.0
 70
   688
 72
     1
 73
     0
 74
     5
  7

 75
    16
147
1.0
148
0.0
149
0.0
100
AcDbLayout
  1
Layout1
 70
     1
 71
     1
 10
0.0
 20
0.0
 11
420.0
 21
297.0
 12
0.0
 22
0.0
 32
0.0
 14
1.0000000000E+20
 24
1.0000000000E+20
 34
1.0000000000E+20
 15
-1.0000000000E+20
 25
-1.0000000000E+20
 35
-1.0000000000E+20
146
0.0
 13
0.0
 23
0.0
 33
0.0
 16
1.0
 26
0.0
 36
0.0
 17
0.0
 27
1.0
 37
0.0
 76
     0
330
1B
  0
LAYOUT
  5
26
102
{ACAD_REACTORS
330
1A
102
}
330
1A
100
AcDbPlotSettings
  1

  2
none_device
  4

  6

 40
0.0
 41
0.0
 42
0.0
 43
0.0
 44
0.0
 45
0.0
 46
0.0
 47
0.0
 48
0.0
 49
0.0
140
0.0
141
0.0
142
1.0
143
1.0
 70
   688
 72
     1
 73
     0
 74
     5
  7

 75
    16
147
1.0
148
0.0
149
0.0
100
AcDbLayout
  1
Layout2
 70
     1
 71
     2
 10
0.0
 20
0.0
 11
0.0
 21
0.0
 12
0.0
 22
0.0
 32
0.0
 14
0.0
 24
0.0
 34
0.0
 15
0.0
 25
0.0
 35
0.0
146
0.0
 13
0.0
 23
0.0
 33
0.0
 16
1.0
 26
0.0
 36
0.0
 17
0.0
 27
1.0
 37
0.0
 76
     0
330
23
  0
LAYOUT
  5
22
102
{ACAD_REACTORS
330
1A
102
}
330
1A
100
AcDbPlotSettings
  1

  2
none_device
  4
Letter_(8.50_x_11.00_Inches)
  6

 40
6.35
 41
6.35
 42
6.35000508
 43
6.35000508
 44
215.9
 45
279.4
 46
0.0
 47
0.0
 48
0.0
 49
0.0
140
0.0
141
0.0
142
1.0
143
1.0
 70
  1712
 72
     1
 73
     0
 74
     0
  7

 75
     0
147
1.0
148
0.0
149
0.0
100
AcDbLayout
  1
Model
 70
     1
 71
     0
 10
0.0
 20
0.0
 11
279.4
 21
215.9
 12
0.0
 22
0.0
 32
0.0
 14
0.0
 24
0.0
 34
0.0
 15
279.4
 25
215.9
 35
0.0
146
0.0
 13
0.0
 23
0.0
 33
0.0
 16
1.0
 26
0.0
 36
0.0
 17
0.0
 27
1.0
 37
0.0
 76
     0
330
1F
331
29
  0
MLINESTYLE
  5
18
102
{ACAD_REACTORS
330
17
102
}
330
17
100
AcDbMlineStyle
  2
Standard
 70
     0
  3

 62
   256
 51
90.0
 52
90.0
 71
     2
 49
0.5
 62
   256
  6
BYLAYER
 49
-0.5
 62
   256
  6
BYLAYER
  0
ACDBPLACEHOLDER
  5
F
102
{ACAD_REACTORS
330
E
102
}
330
E
  0
SCALE
  5
48
102
{ACAD_REACTORS
330
47
102
}
330
47
100
AcDbScale
 70
     0
300
1:1
140
1.0
141
1.0
290
     1
  0
SCALE
  5
49
102
{ACAD_REACTORS
330
47
102
}
330
47
100
AcDbScale
 70
     0
300
1:2
140
1.0
141
2.0
290
     0
  0
SCALE
  5
4A
102
{ACAD_REACTORS
330
47
102
}
330
47
100
AcDbScale
 70
     0
300
1:4
140
1.0
141
4.0
290
     0
  0
SCALE
  5
4B
102
{ACAD_REACTORS
330
47
102
}
330
47
100
AcDbScale
 70
     0
300
1:5
140
1.0
141
5.0
290
     0
  0
SCALE
  5
4C
102
{ACAD_REACTORS
330
47
102
}
330
47
100
AcDbScale
 70
     0
300
1:8
140
1.0
141
8.0
290
     0
  0
SCALE
  5
4D
102
{ACAD_REACTORS
330
47
102
}
330
47
100
AcDbScale
 70
     0
300
1:10
140
1.0
141
10.0
290
     0
  0
SCALE
  5
4E
102
{ACAD_REACTORS
330
47
102
}
330
47
100
AcDbScale
 70
     0
300
1:16
140
1.0
141
16.0
290
     0
  0
SCALE
  5
4F
102
{ACAD_REACTORS
330
47
102
}
330
47
100
AcDbScale
 70
     0
300
1:20
140
1.0
141
20.0
290
     0
  0
SCALE
  5
50
102
{ACAD_REACTORS
330
47
102
}
330
47
100
AcDbScale
 70
     0
300
1:30
140
1.0
141
30.0
290
     0
  0
SCALE
  5
51
102
{ACAD_REACTORS
330
47
102
}
330
47
100
AcDbScale
 70
     0
300
1:40
140
1.0
141
40.0
290
     0
  0
SCALE
  5
52
102
{ACAD_REACTORS
330
47
102
}
330
47
100
AcDbScale
 70
     0
300
1:50
140
1.0
141
50.0
290
     0
  0
SCALE
  5
53
102
{ACAD_REACTORS
330
47
102
}
330
47
100
AcDbScale
 70
     0
300
1:100
140
1.0
141
100.0
290
     0
  0
SCALE
  5
54
102
{ACAD_REACTORS
330
47
102
}
330
47
100
AcDbScale
 70
     0
300
2:1
140
2.0
141
1.0
290
     0
  0
SCALE
  5
55
102
{ACAD_REACTORS
330
47
102
}
330
47
100
AcDbScale
 70
     0
300
4:1
140
4.0
141
1.0
290
     0
  0
SCALE
  5
56
102
{ACAD_REACTORS
330
47
102
}
330
47
100
AcDbScale
 70
     0
300
8:1
140
8.0
141
1.0
290
     0
  0
SCALE
  5
57
102
{ACAD_REACTORS
330
47
102
}
330
47
100
AcDbScale
 70
     0
300
10:1
140
10.0
141
1.0
290
     0
  0
SCALE
  5
58
102
{ACAD_REACTORS
330
47
102
}
330
47
100
AcDbScale
 70
     0
300
100:1
140
100.0
141
1.0
290
     0
  0
SCALE
  5
59
102
{ACAD_REACTORS
330
47
102
}
330
47
100
AcDbScale
 70
     0
300
1/128" = 1'-0"
140
0.0078125
141
12.0
290
     0
  0
SCALE
  5
5A
102
{ACAD_REACTORS
330
47
102
}
330
47
100
AcDbScale
 70
     0
300
1/64" = 1'-0"
140
0.015625
141
12.0
290
     0
  0
SCALE
  5
5B
102
{ACAD_REACTORS
330
47
102
}
330
47
100
AcDbScale
 70
     0
300
1/32" = 1'-0"
140
0.03125
141
12.0
290
     0
  0
SCALE
  5
5C
102
{ACAD_REACTORS
330
47
102
}
330
47
100
AcDbScale
 70
     0
300
1/16" = 1'-0"
140
0.0625
141
12.0
290
     0
  0
SCALE
  5
5D
102
{ACAD_REACTORS
330
47
102
}
330
47
100
AcDbScale
 70
     0
300
3/32" = 1'-0"
140
0.09375
141
12.0
290
     0
  0
SCALE
  5
5E
102
{ACAD_REACTORS
330
47
102
}
330
47
100
AcDbScale
 70
     0
300
1/8" = 1'-0"
140
0.125
141
12.0
290
     0
  0
SCALE
  5
5F
102
{ACAD_REACTORS
330
47
102
}
330
47
100
AcDbScale
 70
     0
300
3/16" = 1'-0"
140
0.1875
141
12.0
290
     0
  0
SCALE
  5
60
102
{ACAD_REACTORS
330
47
102
}
330
47
100
AcDbScale
 70
     0
300
1/4" = 1'-0"
140
0.25
141
12.0
290
     0
  0
SCALE
  5
61
102
{ACAD_REACTORS
330
47
102
}
330
47
100
AcDbScale
 70
     0
300
3/8" = 1'-0"
140
0.375
141
12.0
290
     0
  0
SCALE
  5
62
102
{ACAD_REACTORS
330
47
102
}
330
47
100
AcDbScale
 70
     0
300
1/2" = 1'-0"
140
0.5
141
12.0
290
     0
  0
SCALE
  5
63
102
{ACAD_REACTORS
330
47
102
}
330
47
100
AcDbScale
 70
     0
300
3/4" = 1'-0"
140
0.75
141
12.0
290
     0
  0
SCALE
  5
64
102
{ACAD_REACTORS
330
47
102
}
330
47
100
AcDbScale
 70
     0
300
1" = 1'-0"
140
1.0
141
12.0
290
     0
  0
SCALE
  5
65
102
{ACAD_REACTORS
330
47
102
}
330
47
100
AcDbScale
 70
     0
300
1-1/2" = 1'-0"
140
1.5
141
12.0
290
     0
  0
SCALE
  5
66
102
{ACAD_REACTORS
330
47
102
}
330
47
100
AcDbScale
 70
     0
300
3" = 1'-0"
140
3.0
141
12.0
290
     0
  0
SCALE
  5
67
102
{ACAD_REACTORS
330
47
102
}
330
47
100
AcDbScale
 70
     0
300
6" = 1'-0"
140
6.0
141
12.0
290
     0
  0
SCALE
  5
68
102
{ACAD_REACTORS
330
47
102
}
330
47
100
AcDbScale
 70
     0
300
1'-0" = 1'-0"
140
12.0
141
12.0
290
     0
  0
ENDSEC
  0
EOF
